Hey There, Mystery Person
Trying to vote on a comment, eh? You need an account to do that! You should totally get one! You'll get your own username and can participate in community stuff. It's awesome! Already have an account? Log in above!

The Original Venture Bros. News & Information Site

Look Away Tablature

LOOK AWAY
By Nick DeMayo
(send any corrections to dougunderscorenelson at gmail.com)
Download a copy of Look Away at Venture Bros.com


G (riff)   D
1-----1----2
0-----0----3
0-----0----2
0-----0----0
2 0 2 3-----
3-----3-----

Two angels are plucked from the heavenly sky...in an




C                            Amin    D
0----------------------------0-------2
1----------------------------1-------3
-----------------------------2-------2
2----------------------------2-------0
3----------------------------0--------
0-------------------------------------

instant they're gone, in the blink of an eye



G (riff)   D
1-----1----2
0-----0----3
0-----0----2
0-----0----0
2 0 2 3-----
3-----3-----

If you listen close, you'll hear cherubs cry




C                       D   (repeat riff)
0-----------------------2-----1-----1----2
1-----------------------3-----0-----0----3
------------------------2-----0-----0----2
2-----------------------0-----0-----0----0
3-----------------------------2 0 2 3-----
0-----------------------------3-----3-----

Ohhhhhhhhhhhhhhhh, look away

Back to Episode 111 Capsule

Latest Features

Commercial Break

Popular Features

More Features